Request Tabs

AuthorMessage
wfougoafoihqfe
Falling In Love With The Board
wfougoafoihqfe
Age: 29
Gender: Female
Posts: 9656
November 28th, 2006 at 03:28pm
Can anyone help me find the tab for 'Special Brew' by Bad Manners?

I might use it for my next performance & i can't find the tab anywhere.

kcheers.
Miss Murder
Geek
Miss Murder
Age: 28
Gender: Female
Posts: 203

Mibba Blog
December 13th, 2006 at 04:38pm
Does anyone have the bass tab for The Saints are Coming?
peeingchicken
Geek
peeingchicken
Age: -
Gender: Male
Posts: 177
April 8th, 2007 at 06:39pm
doe anyone have billie joes mom!!!!!!??????!!!I NEEEEEEEEEEEEEEEEEEEEEEEEEEEEEEEEEEED IT!!!!pwease
The Fool On The Hill
Had A Life Before GSB
The Fool On The Hill
Age: 31
Gender: Female
Posts: 26154
April 9th, 2007 at 09:11pm
Use 911tabs.com Wink It's really helpful
Between Halloweens.
Banned
Between Halloweens.
Age: 32
Gender: Female
Posts: 2410
April 12th, 2007 at 07:22am
I haven't been able to find any decent tabs for The Saints Are Coming or
that many for The Phenomenauts.

I also suggest people visit..

Ultimate Guitar
Complete Savage
Shoot Me, I'm A Newbie
Complete Savage
Age: 29
Gender: Male
Posts: 67
April 20th, 2007 at 09:41am
I doubt she still needs it but here's for the tab for "The Saints Are Coming" in case anyone needs it in future:

Bass
G||-------|-------|-------|-------|-------|-------|
D||-------|-------|-------|-------|-------|-------|
A||-------|-------|-------|-------|-------|-------|
E||-------|-------|-------|-------|-------|-------|


-------|-------|-------|-------|-------|-------|-------|
-------|-------|-------|-------|-------|-------|-------|
-------|-------|-------|-------|-------|-------|-------|
-------|-------|-------|-------|-------|-------|-------|


-------|-------|-------|-------|-------|-------|-------|
-------|-------|-------|-------|-------|-------|-------|
-------|-------|-------|-------|-------|-------|-------|
-------|-------|-------|-------|-------|-------|-------|


-------|-------|-------|-------|-------|-------|-------|
-------|-------|-------|-------|-------|-------|-------|
-------|-------|-------|-------|-------|-------|-------|
-------|-------|-------|-------|-------|-------|-------|


-------|-------|-------|-------|-------|-------|-------|
-------|-------|-------|-------|-------|-------|-------|
-------|-------|-------|-------|-------|-------|-------|
-------|-------|-------|-------|-------|-------|-------|


-------|-------|-------|-------|-------|-------|-------|
-------|-------|-------|-------|-------|-------|-------|
-------|-------|-------|-------|-------|-------|-------|
-------|-------|-------|-------|-------|-------|-------|


E E E E E E E E
-------|-------|--------------------------|
-------|-------|--5-----5-----5-----5-----|
-------|-------|--------------------------|
-------|-------|--------------------------|


E E E E E E E E E E E E E E E E
--------------------------|--------------------------|
--4-----4-----4-----4-----|--0-----0-----0-----0-----|
--------------------------|--------------------------|
--------------------------|--------------------------|


E E E E E E E E E E E E E E E E
--------------------------|--------------------------|
--------------------------|--5-----5-----5-----5-----|
--4-----4-----4-----4-----|--------------------------|
--------------------------|--------------------------|


E E E E E E E E E E E E E E E E
--------------------------|--------------------------|
--4-----4-----4-----4-----|--0-----0-----0-----0-----|
--------------------------|--------------------------|
--------------------------|--------------------------|


E E E E E E E E W
--------------------------|-------------------|
--------------------------|-------------------|
--4-----4-----4-----4-----|--7----------------|
--------------------------|-------------------|


W W
--------------------|-------------------|
--------------------|-------------------|
--10----------------|--2----------------|
--------------------|-------------------|


E E E E E E E E W
--------------------------|-------------------|
--------------------------|-------------------|
-----9--L--9--7--5--------|--7----------------|
--7-----------------3--1--|-------------------|


W W
--------------------|-------------------|
--------------------|-------------------|
--10----------------|--2----------------|
--------------------|-------------------|


E E E E E E E E Q Q Q Q
--------------------------|----------------------|
--------------------------|----------------------|
-----9--L--9--7--5--------|----------------------|
--7-----------------3--1--|--0----0----0----0----|


Q Q Q Q Q Q Q Q
----------------------|----------------------|
----------------------|----------------------|
----------------------|----------------------|
--3----3----3----3----|--0----0----0----0----|


Q Q Q Q Q Q Q Q
----------------------|----------------------|
----------------------|----------------------|
----------------------|----------------------|
--3----3----3----3----|--0----0----0----0----|


Q Q Q Q E E E E E E E E
----------------------|--------------------------|
----------------------|--------------------------|
----------------------|--------------------------|
--3----3----3----3----|--7--7--7--7--7--7--7--7--|


E E E E E E E E Q Q Q Q
--------------------------|----------------------|
--------------------------|----------------------|
--------------------------|----------------------|
--6--6--6--6--6--6--6--6--|--0----0----0----0----|


Q Q Q Q Q Q Q Q
----------------------|----------------------|
----------------------|----------------------|
----------------------|----------------------|
--3----3----3----3----|--0----0----0----0----|


Q Q Q Q E E E E E E E E
----------------------|--------------------------|
----------------------|--------------------------|
----------------------|--------------------------|
--3----3----3----3----|--7--7--7--7--7--7--7--7--|


E E E E E E E E E E E E E E E E
--------------------------|--------------------------|
--------------------------|--------------------------|
--------------------------|--------------------------|
--6--6--6--6--6--6--6--6--|--7--7--7--7--7--7--7--7--|


E E E E E E E E
-----|--------------------------|
-----|--5-----------------------|
-----|--------------------------|
-----|--------------------------|


E E E E E E E E E E E E E E E E
--------------------------|--------------------------|
--4-----------------------|--0-----------------------|
--------------------------|--------------------------|
--------------------------|--------------------------|


E E E E E E E E E E E E E E E E
--------------------------|--------------------------|
--------------------------|--5-----------------------|
--4-----------------------|--------------------------|
--------------------------|--------------------------|


E E E E E E E E E E E E E E E E
--------------------------|--------------------------|
--4-----------------------|--0-----------------------|
--------------------------|--------------------------|
--------------------------|--------------------------|


E E E E E E E E W
--------------------------|-------------------|
--------------------------|-------------------|
--4-----------------------|--7----------------|
--------------------------|-------------------|


W W
--------------------|-------------------|
--------------------|-------------------|
--10----------------|--2----------------|
--------------------|-------------------|


E E E E E E E E W
--------------------------|-------------------|
--------------------------|-------------------|
-----9--L--9--7--5--------|--7----------------|
--7-----------------3--1--|-------------------|


W W
--------------------|-------------------|
--------------------|-------------------|
--10----------------|--2----------------|
--------------------|-------------------|


E E E E E E E E W
--------------------------|-------------------|
--------------------------|-------------------|
-----9--L--9--7--5--------|--7----------------|
--7-----------------3--1--|-------------------|


W W
--------------------|-------------------|
--------------------|-------------------|
--10----------------|--2----------------|
--------------------|-------------------|


E E E E E E E E W
--------------------------|-------------------|
--------------------------|-------------------|
-----9--L--9--7--5--------|--7----------------|
--7-----------------3--1--|-------------------|


W W
--------------------|-------------------|
--------------------|-------------------|
--10----------------|--2----------------|
--------------------|-------------------|


E E E E E E E E Q Q Q Q
--------------------------|----------------------|
--------------------------|----------------------|
-----9--L--9--7--5--------|----------------------|
--7-----------------3--1--|--0----0----0----0----|


Q Q Q Q Q Q Q Q
----------------------|----------------------|
----------------------|----------------------|
----------------------|----------------------|
--3----3----3----3----|--0----0----0----0----|


Q Q Q Q Q Q Q Q
----------------------|----------------------|
----------------------|----------------------|
----------------------|----------------------|
--3----3----3----3----|--0----0----0----0----|


Q Q Q Q E E E E E E E E
----------------------|--------------------------|
----------------------|--------------------------|
----------------------|--------------------------|
--3----3----3----3----|--7--7--7--7--7--7--7--7--|


E E E E E E E E Q Q Q Q
--------------------------|----------------------|
--------------------------|----------------------|
--------------------------|----------------------|
--6--6--6--6--6--6--6--6--|--0----0----0----0----|


Q Q Q Q Q Q Q Q
----------------------|----------------------|
----------------------|----------------------|
----------------------|----------------------|
--3----3----3----3----|--0----0----0----0----|


Q Q Q Q E E E E E E E E
----------------------|--------------------------|
----------------------|--------------------------|
----------------------|--------------------------|
--3----3----3----3----|--7--7--7--7--7--7--7--7--|


E E E E E E E E E E E E E E E E
--------------------------|--------------------------|
--------------------------|--------------------------|
--------------------------|--------------------------|
--6--6--6--6--6--6--6--6--|--7--7--7--7--7--7--7--7--|


E E E E E E E E E E E E E E E E
--------------------------|--------------------------|
--------------------------|--------------------------|
--------------------------|--------------------------|
--6--6--6--6--6--6--6--6--|--7--7--7--7--7--7--7--7--|


E E E E E E E E W
--------------------------|-------------------|
--------------------------|-------------------|
--------------------------|-------------------|
--7--7--7--7--7--7--7--7--|--7----------------|


W
-------------------||
-------------------||
-------------------||
--L----------------||
BREASTS
Idiot
BREASTS
Age: -
Gender: -
Posts: 973
May 8th, 2007 at 08:40pm
With ultimate guitar you have to remember that there are more that one version. It took me a looooong time to figure that one out...
The Fool On The Hill
Had A Life Before GSB
The Fool On The Hill
Age: 31
Gender: Female
Posts: 26154
May 8th, 2007 at 11:01pm
Look for the one that has the most views or comments or posts or whatever.. That's usually the best version.
Franny.
Falling In Love With The Board
Franny.
Age: -
Gender: Female
Posts: 5246
May 9th, 2007 at 10:13am
The Fool On The Hill:
Look for the one that has the most views or comments or posts or whatever.. That's usually the best version.


that and the one with the most stars [out of 5].
Dom
Jackass
Dom
Age: 31
Gender: Male
Posts: 1691
May 9th, 2007 at 11:06am
Franny.:
The Fool On The Hill:
Look for the one that has the most views or comments or posts or whatever.. That's usually the best version.


that and the one with the most stars [out of 5].


yeah but sometimes it can be one 5 star rating that maybe their friend, or an idiot has rated it lol, and it could be a bad tab.
MiaThisIsUrgent.
Geek
MiaThisIsUrgent.
Age: 30
Gender: -
Posts: 233

Blog
June 11th, 2007 at 09:36am
I need a really good tab for "only ashes" by something corporate
don't bother linking me to ultimate-guitar.
I've already tried their tabs of the song.
Franny.
Falling In Love With The Board
Franny.
Age: -
Gender: Female
Posts: 5246
June 11th, 2007 at 10:16am
Dom:
Franny.:
The Fool On The Hill:
Look for the one that has the most views or comments or posts or whatever.. That's usually the best version.


that and the one with the most stars [out of 5].


yeah but sometimes it can be one 5 star rating that maybe their friend, or an idiot has rated it lol, and it could be a bad tab.


lol good point. i usually look at a couple of the top star ones and choose which one's closest. works well for me =P
lyrical_mess
Falling In Love With The Board
lyrical_mess
Age: 30
Gender: Female
Posts: 5278

Mibba Blog
June 15th, 2007 at 11:07am
Does anyone have a tab for MCR's interlude?
Jay Tee
Had A Life Before GSB
Jay Tee
Age: 32
Gender: Male
Posts: 26777

Mibba Blog
June 18th, 2007 at 05:50pm
lyrical_mess:
Does anyone have a tab for MCR's interlude?

http://www.ultimate-guitar.com/tabs/m/my_chemical_romance/interlude_tab.htm
just_call_me_dookie
Addict
just_call_me_dookie
Age: 29
Gender: Female
Posts: 12902

Mibba
June 20th, 2007 at 04:32pm
I'm looking for Drum tabs to The White Stripes Seven Nation Army.

I'm having a hell of a time learning it and trying to find the music.
Jay Tee
Had A Life Before GSB
Jay Tee
Age: 32
Gender: Male
Posts: 26777

Mibba Blog
June 22nd, 2007 at 06:07am
just_call_me_dookie:
I'm looking for Drum tabs to The White Stripes Seven Nation Army.

I'm having a hell of a time learning it and trying to find the music.

It's not that hard surely Confused
just_call_me_dookie
Addict
just_call_me_dookie
Age: 29
Gender: Female
Posts: 12902

Mibba
June 22nd, 2007 at 09:57am
Jay Tee:
just_call_me_dookie:
I'm looking for Drum tabs to The White Stripes Seven Nation Army.

I'm having a hell of a time learning it and trying to find the music.

It's not that hard surely Confused
About learning it no, but theres a part that I can't get and I need it clarified on paper and I cannot find tabs for it.
Now I feel like a loser.
miau
King For A Couple Of Days
miau
Age: 28
Gender: Female
Posts: 4469
November 17th, 2007 at 10:03pm
Okay. Requests.

Baddie's Boogie by Babyshambles (I'm especially looking for that melody thing the guitar is playing...which you hear best in the beginning)

I actually had another request but I've forgotten it. Blah. Rolling Eyes
Miley Cyrus
Basket Case
Miley Cyrus
Age: 28
Gender: Female
Posts: 15185

Blog
December 23rd, 2007 at 06:48pm
Edit- found what I was looking for.
Jay Tee
Had A Life Before GSB
Jay Tee
Age: 32
Gender: Male
Posts: 26777

Mibba Blog
January 3rd, 2008 at 10:16am
Sheepless and redundant:
Edit- found what I was looking for.

-sigh- if only Bono shared such a feeling.
Register